Greensleeves Tablature für Gitarre
Greensleeves ist eine bekannte und beliebte englische Volksballade aus dem 16. Jahrhundert. Es ist auch ein sehr beliebtes Weihnachtslied bekannt als Was für ein Kind ist das. Die Texte von Was für ein Kind ist das wurden 1865 von William Chatterton Dix geschrieben und später mit dem kombiniert Greensleeves Arrangement und Melodie.

Dies ist eine schöne, einfache Anordnung für Anfänger und Fortgeschrittene. Es steht alleine und klingt auch gut mit anderen Instrumentalbegleitungen. Wenn Sie lange genug Gitarrist waren, um ein paar Chops zu entwickeln, können Sie Verzierungen hinzufügen und coole Soli spielen.

Greensleeves ~ Was für ein Kind ist das?


Traditionelles Tabulatur-Arrangement von Sabira Woolley, 3/4 Mal, Tonart Am
 Bin C G Em
E | ----------- | ---------------- | --- 0 ------ 1--0 --- | - --------------- | ----------------- |
B | ----------- | --- 1 -------- 3 --- | --- 1 ------------- | - --3 -------- 0 --- | ------------- 0 --- |
G | ------- 2 --- | --- 2 ------------ | --- 0 ------------- | - --0 ------------ | --- 0 ----- 2 ------- |
D | ----------- | --- 2 ------------ | ----------------- | - --0 ------------ | --- 2 ------------- |
A | ----------- | --- 0 ------------ | --- 3 ------------- | - --------------- | --- 2 ------------- |
E | ----------- | ---------------- | ----------------- | - --3 ------------ | ----------------- |

Bin F E E.
|--------------------|--------------------|--------------------|--------------------|
|----1---------------|--------------------|----0---------------|--------------------|
|----2----------2----|----2-------1---2---|---------------1----|---------------2----|
|----2---------------|----3---------------|----2---------------|----2---------------|
|----0---------------|----0---------------|--------------------|----2---------------|
|--------------------|--------------------|----0---------------|----0---------------|

Bin C G Em
|--------------------|----0-------1---0---|--------------------|--------------------|
|----1----------3----|----1---------------|----3----------0----|----------------0---|
|----2---------------|----0---------------|----0---------------|----0-------2-------|
|----2---------------|--------------------|----0---------------|----2---------------|
|----0---------------|----3---------------|--------------------|----2---------------|
|--------------------|--------------------|----3---------------|--------------------|

F E Am Am
|--------------------|--------------------|--------------------|--------------------|
|----1------0--------|--------------------|--------------------|--------------------|
|----2----------2----|----1-----------1---|----2---------------|----2---------------|
|----3---------------|----2-------4-------|----2---------------|----2---------------|
|----0---------------|--------------------|----0---------------|----3---------------|
|--------------------|----0---------------|----0---------------|--------------------|

C C / D G Em
|----3---------------|----3-------2---0---|--------------------|--------------------|
|----1---------------|----1---------------|----3----------0----|----------------0---|
|----0---------------|----0---------------|----0---------------|----0-------2-------|
|--------------------|----0---------------|--------------------|----2---------------|
|----3---------------|--------------------|--------------------|----2---------------|
|--------------------|--------------------|----3---------------|----3---------------|

Bin F E E.
|--------------------|--------------------|--------------------|--------------------|
|-----1--------------|--------------------|----0---------------|--------------------|
|-----2---------2----|----2-------1---2---|---------------1----|--------------------|
|-----2--------------|----3---------------|----2---------------|----2---------------|
|-----0--------------|----0---------------|----2---------------|----2---------------|
|--------------------|--------------------|----0---------------|----0---------------|

C C / D G Em
|----3---------------|----3-------2---0---|--------------------|--------------------|
|----1---------------|----1---------------|----3----------0----|----------------0---|
|----0---------------|----0---------------|--------------------|----0-------2-------|
|--------------------|----0---------------|--------------------|----2---------------|
|----3---------------|--------------------|----2---------------|--------------------|
|--------------------|--------------------|----3---------------|----3---------------|

Bin E Bin A.
|--------------------|--------------------|--------------------|-----0--------------||
|----1-------0-------|--------------------|--------------------|--------------------||
|----2-----------2---|----1-----------1---|----2---------------|-----2--------------||
|----2---------------|------------4-------|----2---------------|-----2--------------||
|----0---------------|--------------------|----0---------------|-----0--------------||
|--------------------|----0---------------|--------------------|--------------------||


Wenn Sie das Ende erreicht haben, kehren Sie zum Anfang zurück und spielen es erneut durch.

Wenn Sie mit diesem Song vertraut sind, ist das Timing und die Phrasierung leicht zu erkennen. Wenn Sie Greensleeves oder What Child Is This noch nicht gehört haben, sind viele Audio- und Videoaufnahmen von vielen Künstlern online verfügbar.

Habe Spaß!

Wenn Sie mehr schöne klassische Gitarrenlieder oder Weihnachtslieder lernen möchten, finden Sie hier zwei ausgezeichnete Bücher, die Tabulatur und Standardnotation enthalten. Das Weihnachtsliedbuch enthält auch eine CD mit den Arrangements, was sehr hilfreich ist.
Ich erhielt meine Kopien als Geschenke von meinem Freund und Bandmitglied Ron Nathan. Danke, Ron!
50 klassische Gitarrenstücke - In Tabulatur und Standardnotation
Mark Hansons Fingerstyle-Weihnachtsgitarre: (Buch & CD) 12 wunderschöne Songs & Carols für Solo-Gitarre

Wenn Sie Musik von Sabira Woolley hören oder kaufen möchten, finden Sie hier ihren Musikladen.

Video-Anleitungen: Greensleeves - Free sheet music and TABS for classical guitar (Juli 2020).